88 Fingers Louie - Tomorrow Starts Today (var.3) Guitar tab download free or play online

Guitar tab for Tomorrow Starts Today (var.3) by 88 Fingers Louie free download and read or play online: file .txt, 3.29 kb has 237 views and 0 downloads.

Download guitar tab "Tomorrow Starts Today (var.3)" (88 Fingers Louie)

88 Fingers Louie Band name
Tomorrow Starts Today Song name
Guitar tabs Tab type
3.29 kb File size
.TXT File type
237 views
0 downloads
 
Are you robot?

Tomorrow Starts Today (var.3) guitar tab read and play online

                    -------------------------------------------------------------------------------
                   TOMORROW STARTS TODAY - 88 Fingers Louie
-------------------------------------------------------------------------------

Album: Back on the Streets
Tabbed by: BK

Bass line...

INTRO
e-|-------------------------|
B-|-------------------------|
G-|-12-12--12-12-12--12-----| (fast, :02-:04) 
D-|-12-12--12-12-12--12-9-x-|
A-|-10-10--10-10-10--10-9-x-|
E-|---------------------7-x-|
                          pause
e-|-------------------------------------------------------|
B-|-------------------------------------------------------|
G-|-12-12--12-12-12--12---------------12-12--12-12-12--12-| (:05 ->)  
D-|-12-12--12-12-12--12-9-9--9-9-9--9-12-12--12-12-12--12-|
A-|-10-10--10-10-10--10-9-9--9-9-9--9-10-10--10-10-10--10-|
E-|---------------------7-7--7-7-7--7---------------------|
    
e-|---------------------------------------|
B-|---------------------------------------|
G-|-7-7--7-7-7--7----11-11--11-11-11--11--| (-> :10)   
D-|-7-7--7-7-7--7----9--9---9--9--9---9---|
A-|-5-5--5-5-5--5----9--9---9--9--9---9---|
E-|---------------------------------------|

VERSE
Start back on D-|--9--| and repeat the (:05-:10) intro part twice till :28
              A-|--9--|
              E-|--7--|

CHORUS
e-|-----------------------------------------------------------------------|
B-|-----------------------------------------------------------------------|
G-|-----------------------------------------------------------------------| 
D-|--55555-44444-12-9-9999--12-11-9-7---55555-44444-12-9-9999--12-11-9-x--|
A-|--55555-44444-12-9-9999--12-11-9-7---55555-44444-12-9-9999--12-11-9-x--|
E-|--33333-22222-10-7-7777--10-9--7-5---33333-22222-10-7-7777--10-9--7-x--|
                                                                       pause

e-|--------------------------------------------------|
B-|--------------------------------------------------|
G-|--------------------------------------------------| (takes you to :42)
D-|--55555-44444-12-9-9999--12121212--55555--4-1212--|  
A-|--55555-44444-12-9-9999--12121212--55555--4-1010--|
E-|--33333-22222-10-7-7777--10101010--33333--2-1010--|

Go back to VERSE and repeat that part twice. (:43 - 1:00)
Go to CHORUS and do that once. (1:01 - 1:14)

BRIDGE
e-|--------------------------------------------------------------|
B-|--------------------------------------------------------------|
G-|--4---6-6-9-7-6-7-6----4---6-7-9-7-6-7-9-7-6-7-11-12-11-9-7---| (1:15-1:29)
D-|--x---x-x-x-x-x-x-x----x---x-x-x-x-x-x-x-x-x-x-x--x--x--x-x---|  
A-|--2..-4-5-7-5-4-5-4..--2..-4-5-7-5-4-5-7-5-4-5-9--10-9--7-5---|
E-|--------------------------------------------------------------|

e-|--------------------------------|
B-|--------------------------------|
G-|--------------------------------| (repeat TWICE, takes you to 1:44)
D-|--999999-555555-222222-444444---|  
A-|--999999-555555-222222-444444---|
E-|--777777-333333-000000-222222---|

Back to Bassline...INTRO/VERSE one last time and then

e-|----------------------|
B-|----------------------|
G-|----------------------| and your done.
D-|--55555-44444-12-9-x--|  
A-|--55555-44444-12-9-x--|
E-|--33333-22222-10-7-x--|

==============================================================================                    

Comments for guitar tab — Tomorrow Starts Today (var.3) (88 Fingers Louie)

Other Tomorrow Starts Today (var.3) by 88 Fingers Louie tabs:

Last viewed 88 Fingers Louie tabs: